Latest Posts

Three Imaginary Boys Tab | Cords For The Cure

Notations : 
  e : 8th             h : half            q : quarter          
  w : whole            
  / : slide up         

Intro Riff (played twice) 
---------- 
    q  h+q       q  h+q       q  h+q       q  h+q       
G-|------------|------------|------------|------------| 
D-|-2--2-------|------------|------------|------------| 
A-|------------|------------|-2--2-------|-2--2-------| 
E-|------------|-3--3-------|------------|------------| 

Verse Riff 
---------- 
    q  q  q  q    q  q  q  q    q  q  q  q    q  q  q  q    
G-|-------------|-------------|-------------|-------------| 
D-|-2--2--4--2--|-------------|-------------|-1--1--2--4--| 
A-|-------------|-------------|-2--2--3--2--|-------------| 
E-|-------------|-3--3--5--3--|-------------|-------------| 

Bridge Riff 
----------- 
    q  q  q  q    q  q  q  q    q    h+e        e   q  q  q  q    
G-|-------------|-------------|-------------------|-------------| 
D-|-------------|----------2--|-------------------|-------------| 
A-|-0--0--2--0--|-3--3--5-----|-2----2----------2-|-2--2--3--2--| 
E-|-------------|-------------|-------------------|-------------| 

Chorus Riff 
----------- 
     h     q  q    h    q  q    h    q  q    q  q  q  q    
G-|--------------|------------|------------|-------------| 
D-|-/5-----7--5--|-4----5--4--|-3----5--3--|-1--1--2--4--| 
A-|--------------|------------|------------|-------------| 
E-|--------------|------------|------------|-------------| 

End Riff 
-------- 
    h    q  q    h    q  q    h    q  q    h  h    w                
G-|------------|------------|------------|-------|----------------| 
D-|-5----7--5--|-4----5--4--|-3----5--3--|-1--1--|-2--------------| 
A-|------------|------------|------------|-------|----------------| 
E-|------------|------------|------------|-------|----------------| 

Also, read Maze Of Mirrors Dungeon Mokoko Seeds

Ru
Ru
Ru is an entertainment nerd who likes to spill the beans about what's happening in the entertainment industry. She comes up with well-researched articles so that you can "Netflix and Chill." Come join her as she has a lot to tell her readers.

Latest Posts